[NEW] Chords Kunci Gitar The Changcuters Gila-Gilaan solo (tab) Lirik Terjemahan Arti Lagu

The Changcuters - Gila-Gilaan !!!!!!!   

Instrumentz chords The Changcuters Gila-Gilaan solo (tab) lyrics
-> gtR1 
-> gtR2 
-> bass      
all in standard tuning....

SoL0::::

gtR1:
e|--------------------------------------------------------|
B|-------------------------13-15-15b17r15-13-13~~~--------|
G|--14--14--14--14--14--14--------------------------------|
D|--------------------------------------------------------|
A|--------------------------------------------------------|
E|--------------------------------------------------------|

|-----------------------------------------------------------------------------------------------------|
|-------------------------------------------------13~~---------13----------13---13-15b17r15-13h15p15--|
|--14--14--14--14--14--------12-12-------12-12-14-----14-12-14----14-12-14---14-----------------------|
|----------------------12h14-------12h14--------------------------------------------------------------|
|-----------------------------------------------------------------------------------------------------|
|-----------------------------------------------------------------------------------------------------|

|------------------------------------------------15----15----15-----------------|
|------------------------13-15-15b17-15-13-15~b17--(17)--(17)---17-16-----------|
|--14--14--14--14--14-14--------------------------------------------------------|
|-------------------------------------------------------------------------------|
|-------------------------------------------------------------------------------|
|-------------------------------------------------------------------------------|

|------------------------------------------------------------------------------|
|--15-15-15-15-15-13-15-13---------13----13-15b17r15b17r15b17r~~~~-------------|
|-------------------------14-12-14----14---------------------------------------|
|------------------------------------------------------------------------------|
|------------------------------------------------------------------------------|
|------------------------------------------------------------------------------|

|----------------------------------|
|----------------------------------|
|--14-14-14-14-14-12----12-14------|
|--------------------14------------|
|----------------------------------|
|----------------------------------|
    gtR2:
   |-------------------------------|
   |-------------------------------|
   |----5h7-5---5------------------|
   |--7-------7---7-5~~~-----------|
   |-------------------------------|
   |-------------------------------|

gtR1:
|----------------------------------|--12-----12-----12--------------|
|----------------------------------|--15b17--15b17--15b17~~~--------|
|--14-14-14-14-14-12----12-14------|--------------------------------|
|--------------------14------------|--------------------------------|
|----------------------------------|--------------------------------|
|----------------------------------|--------------------------------|

|----------------------------------|
|--15-15-15-15-15-13----13-15------|
|--------------------14------------|
|----------------------------------|
|----------------------------------|
|----------------------------------|
   bAsS:
   |----------------------------------|
   cord kord chord The Changcuters Gila-Gilaan solo (tab) kunci gitar |----3---3-------------------------|
lirik terjemahan arti indonesia The Changcuters Gila-Gilaan solo (tab) download mp3   |--5---5---5-3-5~~-----------------|
   |----------------------------------|


|----------------------------------|
|----------------------------------|
|--14-14-14-14-14-12----12-14------|
|--------------------14------------|
|----------------------------------|
|----------------------------------|
                               (drum)

gtR1:
|-----------------------------------------------------------------------12-----12--12-----12----|
|--17-17-17-17-17-17-17-17-16-15-15-15-15-15-15-13-15-13---------13--13-15b17-(17)-15b17-(17)~~-|
|-------------------------------------------------------14-12-14---14---------------------------|
|-----------------------------------------------------------------------------------------------|
|-----------------------------------------------------------------------------------------------|
|-----------------------------------------------------------------------------------------------|


by f3br1sevnfoldsupersynystergatescool182
email at synystergatesbaloonk182@gmail.com